  0
SECTION
  2
HEADER
  9
$ACADVER
  1
AC1015
  9
$ACADMAINTVER
 70
     6
  9
$DWGCODEPAGE
  3
ANSI_1254
  9
$INSBASE
 10
0.0
 20
0.0
 30
0.0
  9
$EXTMIN
 10
0.0
 20
0.0
 30
0.0
  9
$EXTMAX
 10
279.4
 20
215.9
 30
0.0
  9
$LIMMIN
 10
0.0
 20
0.0
  9
$LIMMAX
 10
279.4
 20
215.9
  9
$ORTHOMODE
 70
     0
  9
$REGENMODE
 70
     1
  9
$FILLMODE
 70
     1
  9
$QTEXTMODE
 70
     0
  9
$MIRRTEXT
 70
     1
  9
$LTSCALE
 40
1.0
  9
$ATTMODE
 70
     1
  9
$TEXTSIZE
 40
3.5
  9
$TRACEWID
 40
1.0
  9
$TEXTSTYLE
  7
Standard
  9
$CLAYER
  8
0
  9
$CELTYPE
  6
ByLayer
  9
$CECOLOR
 62
   256
  9
$CELTSCALE
 40
1.0
  9
$DISPSILH
 70
     0
  9
$DIMSCALE
 40
1.0
  9
$DIMASZ
 40
3.5
  9
$DIMEXO
 40
1.0
  9
$DIMDLI
 40
3.75
  9
$DIMRND
 40
0.0
  9
$DIMDLE
 40
0.0
  9
$DIMEXE
 40
1.0
  9
$DIMTP
 40
0.0
  9
$DIMTM
 40
0.0
  9
$DIMTXT
 40
3.5
  9
$DIMCEN
 40
2.5
  9
$DIMTSZ
 40
0.0
  9
$DIMTOL
 70
     0
  9
$DIMLIM
 70
     0
  9
$DIMTIH
 70
     1
  9
$DIMTOH
 70
     1
  9
$DIMSE1
 70
     0
  9
$DIMSE2
 70
     0
  9
$DIMTAD
 70
     1
  9
$DIMZIN
 70
     0
  9
$DIMBLK
  1

  9
$DIMASO
 70
     1
  9
$DIMSHO
 70
     1
  9
$DIMPOST
  1

  9
$DIMAPOST
  1

  9
$DIMALT
 70
     0
  9
$DIMALTD
 70
     3
  9
$DIMALTF
 40
0.0393700787
  9
$DIMLFAC
 40
1.0
  9
$DIMTOFL
 70
     1
  9
$DIMTVP
 40
0.0
  9
$DIMTIX
 70
     0
  9
$DIMSOXD
 70
     0
  9
$DIMSAH
 70
     0
  9
$DIMBLK1
  1

  9
$DIMBLK2
  1

  9
$DIMSTYLE
  2
ISO-25
  9
$DIMCLRD
 70
     0
  9
$DIMCLRE
 70
     0
  9
$DIMCLRT
 70
     0
  9
$DIMTFAC
 40
1.0
  9
$DIMGAP
 40
1.524
  9
$DIMJUST
 70
     0
  9
$DIMSD1
 70
     0
  9
$DIMSD2
 70
     0
  9
$DIMTOLJ
 70
     0
  9
$DIMTZIN
 70
     0
  9
$DIMALTZ
 70
     0
  9
$DIMALTTZ
 70
     0
  9
$DIMUPT
 70
     0
  9
$DIMDEC
 70
     2
  9
$DIMTDEC
 70
     2
  9
$DIMALTU
 70
     2
  9
$DIMALTTD
 70
     3
  9
$DIMTXSTY
  7
Standard
  9
$DIMAUNIT
 70
     0
  9
$DIMADEC
 70
     2
  9
$DIMALTRND
 40
0.0
  9
$DIMAZIN
 70
     0
  9
$DIMDSEP
 70
    44
  9
$DIMATFIT
 70
     3
  9
$DIMFRAC
 70
     0
  9
$DIMLDRBLK
  1

  9
$DIMLUNIT
 70
     2
  9
$DIMLWD
 70
    -2
  9
$DIMLWE
 70
    -2
  9
$DIMTMOVE
 70
     0
  9
$LUNITS
 70
     2
  9
$LUPREC
 70
     2
  9
$SKETCHINC
 40
1.0
  9
$FILLETRAD
 40
10.0
  9
$AUNITS
 70
     0
  9
$AUPREC
 70
     2
  9
$MENU
  1
.
  9
$ELEVATION
 40
0.0
  9
$PELEVATION
 40
0.0
  9
$THICKNESS
 40
0.0
  9
$LIMCHECK
 70
     0
  9
$CHAMFERA
 40
0.0
  9
$CHAMFERB
 40
0.0
  9
$CHAMFERC
 40
0.0
  9
$CHAMFERD
 40
0.0
  9
$SKPOLY
 70
     0
  9
$TDCREATE
 40
2459935.709287685
  9
$TDUCREATE
 40
2459935.584287685
  9
$TDUPDATE
 40
2459935.70928787
  9
$TDUUPDATE
 40
2459935.58428787
  9
$TDINDWG
 40
0.0000000116
  9
$TDUSRTIMER
 40
0.0000000116
  9
$USRTIMER
 70
     1
  9
$ANGBASE
 50
0.0
  9
$ANGDIR
 70
     0
  9
$PDMODE
 70
     0
  9
$PDSIZE
 40
-1.0
  9
$PLINEWID
 40
0.0
  9
$SPLFRAME
 70
     0
  9
$SPLINETYPE
 70
     6
  9
$SPLINESEGS
 70
     8
  9
$HANDSEED
  5
EE
  9
$SURFTAB1
 70
     6
  9
$SURFTAB2
 70
     6
  9
$SURFTYPE
 70
     6
  9
$SURFU
 70
     6
  9
$SURFV
 70
     6
  9
$UCSBASE
  2

  9
$UCSNAME
  2

  9
$UCSORG
 10
0.0
 20
0.0
 30
0.0
  9
$UCSXDIR
 10
1.0
 20
0.0
 30
0.0
  9
$UCSYDIR
 10
0.0
 20
1.0
 30
0.0
  9
$UCSORTHOREF
  2

  9
$UCSORTHOVIEW
 70
     0
  9
$UCSORGTOP
 10
0.0
 20
0.0
 30
0.0
  9
$UCSORGBOTTOM
 10
0.0
 20
0.0
 30
0.0
  9
$UCSORGLEFT
 10
0.0
 20
0.0
 30
0.0
  9
$UCSORGRIGHT
 10
0.0
 20
0.0
 30
0.0
  9
$UCSORGFRONT
 10
0.0
 20
0.0
 30
0.0
  9
$UCSORGBACK
 10
0.0
 20
0.0
 30
0.0
  9
$PUCSBASE
  2

  9
$PUCSNAME
  2

  9
$PUCSORG
 10
0.0
 20
0.0
 30
0.0
  9
$PUCSXDIR
 10
1.0
 20
0.0
 30
0.0
  9
$PUCSYDIR
 10
0.0
 20
1.0
 30
0.0
  9
$PUCSORTHOREF
  2

  9
$PUCSORTHOVIEW
 70
     0
  9
$PUCSORGTOP
 10
0.0
 20
0.0
 30
0.0
  9
$PUCSORGBOTTOM
 10
0.0
 20
0.0
 30
0.0
  9
$PUCSORGLEFT
 10
0.0
 20
0.0
 30
0.0
  9
$PUCSORGRIGHT
 10
0.0
 20
0.0
 30
0.0
  9
$PUCSORGFRONT
 10
0.0
 20
0.0
 30
0.0
  9
$PUCSORGBACK
 10
0.0
 20
0.0
 30
0.0
  9
$USERI1
 70
     0
  9
$USERI2
 70
     0
  9
$USERI3
 70
     0
  9
$USERI4
 70
     0
  9
$USERI5
 70
     0
  9
$USERR1
 40
0.0
  9
$USERR2
 40
0.0
  9
$USERR3
 40
0.0
  9
$USERR4
 40
0.0
  9
$USERR5
 40
0.0
  9
$WORLDVIEW
 70
     1
  9
$SHADEDGE
 70
     3
  9
$SHADEDIF
 70
    70
  9
$TILEMODE
 70
     1
  9
$MAXACTVP
 70
    64
  9
$PINSBASE
 10
0.0
 20
0.0
 30
0.0
  9
$PLIMCHECK
 70
     0
  9
$PEXTMIN
 10
1.0000000000E+20
 20
1.0000000000E+20
 30
1.0000000000E+20
  9
$PEXTMAX
 10
-1.0000000000E+20
 20
-1.0000000000E+20
 30
-1.0000000000E+20
  9
$PLIMMIN
 10
0.0
 20
0.0
  9
$PLIMMAX
 10
420.0
 20
297.0
  9
$UNITMODE
 70
     0
  9
$VISRETAIN
 70
     1
  9
$PLINEGEN
 70
     0
  9
$PSLTSCALE
 70
     1
  9
$TREEDEPTH
 70
  3020
  9
$CMLSTYLE
  2
Standard
  9
$CMLJUST
 70
     0
  9
$CMLSCALE
 40
20.0
  9
$PROXYGRAPHICS
 70
     1
  9
$MEASUREMENT
 70
     1
  9
$CELWEIGHT
370
    -1
  9
$ENDCAPS
280
     0
  9
$JOINSTYLE
280
     0
  9
$LWDISPLAY
290
     1
  9
$INSUNITS
 70
     4
  9
$HYPERLINKBASE
  1

  9
$STYLESHEET
  1

  9
$XEDIT
290
     1
  9
$CEPSNTYPE
380
     0
  9
$PSTYLEMODE
290
     1
  9
$FINGERPRINTGUID
  2
{76fcc77a-635e-4d4c-9e98-a7ac79d66710}
  9
$VERSIONGUID
  2
{FAEB1C32-E019-11D5-929B-00C0DF256EC4}
  9
$EXTNAMES
290
     1
  9
$PSVPSCALE
 40
0.0
  9
$OLESTARTUP
290
     0
  0
ENDSEC
  0
SECTION
  2
CLASSES
  0
CLASS
  1
ACDBDICTIONARYWDFLT
  2
AcDbDictionaryWithDefault
  3
ObjectDBX Classes
 90
        0
280
     0
281
     0
  0
CLASS
  1
VISUALSTYLE
  2
AcDbVisualStyle
  3
ObjectDBX Classes
 90
     4095
280
     0
281
     0
  0
CLASS
  1
MATERIAL
  2
AcDbMaterial
  3
ObjectDBX Classes
 90
     1153
280
     0
281
     0
  0
CLASS
  1
SCALE
  2
AcDbScale
  3
ObjectDBX Classes
 90
     1153
280
     0
281
     0
  0
CLASS
  1
TABLESTYLE
  2
AcDbTableStyle
  3
ObjectDBX Classes
 90
     4095
280
     0
281
     0
  0
CLASS
  1
MLEADERSTYLE
  2
AcDbMLeaderStyle
  3
ACDB_MLEADERSTYLE_CLASS
 90
     4095
280
     0
281
     0
  0
CLASS
  1
SUN
  2
AcDbSun
  3
SCENEOE
 90
     1153
280
     0
281
     0
  0
CLASS
  1
ACDBPLACEHOLDER
  2
AcDbPlaceHolder
  3
ObjectDBX Classes
 90
        0
280
     0
281
     0
  0
CLASS
  1
LAYOUT
  2
AcDbLayout
  3
ObjectDBX Classes
 90
        0
280
     0
281
     0
  0
ENDSEC
  0
SECTION
  2
TABLES
  0
TABLE
  2
VPORT
  5
8
330
0
100
AcDbSymbolTable
 70
     1
  0
VPORT
  5
29
330
8
100
AcDbSymbolTableRecord
100
AcDbViewportTableRecord
  2
*Active
 70
     0
 10
0.0
 20
0.0
 11
1.0
 21
1.0
 12
139.7
 22
107.95
 13
0.0
 23
0.0
 14
10.0
 24
10.0
 15
10.0
 25
10.0
 16
0.0
 26
0.0
 36
1.0
 17
0.0
 27
0.0
 37
0.0
 40
215.9
 41
1.2941176471
 42
50.0
 43
0.0
 44
0.0
 50
0.0
 51
0.0
 71
     0
 72
  2000
 73
     1
 74
     3
 75
     0
 76
     0
 77
     0
 78
     0
281
     0
 65
     1
110
0.0
120
0.0
130
0.0
111
1.0
121
0.0
131
0.0
112
0.0
122
1.0
132
0.0
 79
     0
146
0.0
  0
ENDTAB
  0
TABLE
  2
LTYPE
  5
5
330
0
100
AcDbSymbolTable
 70
     6
  0
LTYPE
  5
14
330
5
100
AcDbSymbolTableRecord
100
AcDbLinetypeTableRecord
  2
ByBlock
 70
     0
  3

 72
    65
 73
     0
 40
0.0
  0
LTYPE
  5
15
330
5
100
AcDbSymbolTableRecord
100
AcDbLinetypeTableRecord
  2
ByLayer
 70
     0
  3

 72
    65
 73
     0
 40
0.0
  0
LTYPE
  5
16
330
5
100
AcDbSymbolTableRecord
100
AcDbLinetypeTableRecord
  2
Continuous
 70
     0
  3
Solid line
 72
    65
 73
     0
 40
0.0
  0
LTYPE
  5
6E
330
5
100
AcDbSymbolTableRecord
100
AcDbLinetypeTableRecord
  2
HIDDEN
 70
     0
  3
Hidden __ __ __ __ __ __ __ __ __ __ __ __ __ __
 72
    65
 73
     2
 40
1.905
 49
1.27
 74
     0
 49
-0.635
 74
     0
  0
LTYPE
  5
6F
330
5
100
AcDbSymbolTableRecord
100
AcDbLinetypeTableRecord
  2
PHANTOM
 70
     0
  3
Phantom ______  __  __  ______  __  __  ______
 72
    65
 73
     6
 40
12.7
 49
6.35
 74
     0
 49
-1.27
 74
     0
 49
1.27
 74
     0
 49
-1.27
 74
     0
 49
1.27
 74
     0
 49
-1.27
 74
     0
  0
LTYPE
  5
70
330
5
100
AcDbSymbolTableRecord
100
AcDbLinetypeTableRecord
  2
CENTER
 70
     0
  3
Center ____ _ ____ _ ____ _ ____ _ ____ _ ____
 72
    65
 73
     4
 40
10.16
 49
6.35
 74
     0
 49
-1.27
 74
     0
 49
1.27
 74
     0
 49
-1.27
 74
     0
  0
LTYPE
  5
71
330
5
100
AcDbSymbolTableRecord
100
AcDbLinetypeTableRecord
  2
CENTERX2
 70
     0
  3
Center (2x) ________  __  ________  __  _____
 72
    65
 73
     4
 40
20.32
 49
12.7
 74
     0
 49
-2.54
 74
     0
 49
2.54
 74
     0
 49
-2.54
 74
     0
  0
LTYPE
  5
72
330
5
100
AcDbSymbolTableRecord
100
AcDbLinetypeTableRecord
  2
DOT2
 70
     0
  3
Dot (.5x) ........................................
 72
    65
 73
     2
 40
0.635
 49
0.0
 74
     0
 49
-0.635
 74
     0
  0
ENDTAB
  0
TABLE
  2
LAYER
  5
2
330
0
100
AcDbSymbolTable
 70
    17
  0
LAYER
  5
10
330
2
100
AcDbSymbolTableRecord
100
AcDbLayerTableRecord
  2
0
 70
     0
 62
     7
  6
Continuous
370
    -3
390
F
  0
LAYER
  5
73
330
2
100
AcDbSymbolTableRecord
100
AcDbLayerTableRecord
  2
FORMAT
 70
     0
 62
     7
  6
Continuous
370
    -3
390
F
  0
LAYER
  5
74
330
2
100
AcDbSymbolTableRecord
100
AcDbLayerTableRecord
  2
YARDIMCI_GEOMETRI
 70
     0
 62
    -6
  6
Continuous
290
     0
370
    -3
390
F
  0
LAYER
  5
75
330
2
100
AcDbSymbolTableRecord
100
AcDbLayerTableRecord
  2
SAYFA_CERCEVESI
 70
     0
 62
     7
  6
Continuous
370
    25
390
F
  0
LAYER
  5
76
330
2
100
AcDbSymbolTableRecord
100
AcDbLayerTableRecord
  2
ANTET
 70
     0
 62
     7
  6
Continuous
370
    -3
390
F
  0
LAYER
  5
77
330
2
100
AcDbSymbolTableRecord
100
AcDbLayerTableRecord
  2
OLCU
 70
     0
 62
   150
  6
Continuous
370
    -3
390
F
  0
LAYER
  5
78
330
2
100
AcDbSymbolTableRecord
100
AcDbLayerTableRecord
  2
METIN
 70
     0
 62
    96
  6
Continuous
370
    -3
390
F
  0
LAYER
  5
79
330
2
100
AcDbSymbolTableRecord
100
AcDbLayerTableRecord
  2
BALON
 70
     0
 62
     5
  6
Continuous
370
    -3
390
F
  0
LAYER
  5
7A
330
2
100
AcDbSymbolTableRecord
100
AcDbLayerTableRecord
  2
VURGU
 70
     0
 62
     7
  6
Continuous
370
    -3
390
F
  0
LAYER
  5
7B
330
2
100
AcDbSymbolTableRecord
100
AcDbLayerTableRecord
  2
SILIK
 70
     0
 62
     7
  6
Continuous
370
    -3
390
F
  0
LAYER
  5
7C
330
2
100
AcDbSymbolTableRecord
100
AcDbLayerTableRecord
  2
MODEL
 70
     0
 62
     7
  6
Continuous
370
    -3
390
F
  0
LAYER
  5
7D
330
2
100
AcDbSymbolTableRecord
100
AcDbLayerTableRecord
  2
DETAYLANDıRMA
 70
     0
 62
   190
  6
Continuous
370
    -3
390
F
  0
LAYER
  5
7E
330
2
100
AcDbSymbolTableRecord
100
AcDbLayerTableRecord
  2
TOLERANS
 70
     0
 62
   230
  6
Continuous
370
    -3
390
F
  0
LAYER
  5
7F
330
2
100
AcDbSymbolTableRecord
100
AcDbLayerTableRecord
  2
MERKEZ_CIZGILERI
 70
     0
 62
    30
  6
Continuous
370
    -3
390
F
  0
LAYER
  5
80
330
2
100
AcDbSymbolTableRecord
100
AcDbLayerTableRecord
  2
KESIT-DETAY_CIZGILERI
 70
     0
 62
     7
  6
Continuous
370
    -3
390
F
  0
LAYER
  5
81
330
2
100
AcDbSymbolTableRecord
100
AcDbLayerTableRecord
  2
\U+041E\U+0421\U+0415\U+0412\U+042B\U+0415
 70
     0
 62
     7
  6
Continuous
370
    -3
390
F
  0
LAYER
  5
82
330
2
100
AcDbSymbolTableRecord
100
AcDbLayerTableRecord
  2
\U+0412\U+041E\U+0414\U+042F\U+041D\U+042B\U+0415_\U+0417\U+041D\U+0410\U+041A\U+0418
 70
     0
 62
    11
  6
Continuous
370
    -3
390
F
  0
ENDTAB
  0
TABLE
  2
STYLE
  5
3
330
0
100
AcDbSymbolTable
 70
     1
  0
STYLE
  5
11
330
3
100
AcDbSymbolTableRecord
100
AcDbTextStyleTableRecord
  2
Standard
 70
     0
 40
0.0
 41
1.0
 50
0.0
 71
     0
 42
3.5
  3
txt
  4

  0
ENDTAB
  0
TABLE
  2
VIEW
  5
6
330
0
100
AcDbSymbolTable
 70
     0
  0
ENDTAB
  0
TABLE
  2
UCS
  5
7
330
0
100
AcDbSymbolTable
 70
     0
  0
ENDTAB
  0
TABLE
  2
APPID
  5
9
330
0
100
AcDbSymbolTable
 70
     1
  0
APPID
  5
12
330
9
100
AcDbSymbolTableRecord
100
AcDbRegAppTableRecord
  2
ACAD
 70
     0
  0
ENDTAB
  0
TABLE
  2
DIMSTYLE
  5
A
330
0
100
AcDbSymbolTable
 70
     1
100
AcDbDimStyleTable
  0
DIMSTYLE
105
27
330
A
100
AcDbSymbolTableRecord
100
AcDbDimStyleTableRecord
  2
ISO-25
 70
     0
 41
2.5
 42
0.625
 43
3.75
 44
1.25
 73
     0
 74
     0
 77
     1
 78
     8
140
2.5
141
2.5
143
0.0393700787
147
0.625
171
     3
172
     1
178
     0
271
     2
272
     2
274
     3
278
    44
283
     0
284
     8
340
11
  0
ENDTAB
  0
TABLE
  2
BLOCK_RECORD
  5
1
330
0
100
AcDbSymbolTable
 70
     2
  0
BLOCK_RECORD
  5
1F
330
1
100
AcDbSymbolTableRecord
100
AcDbBlockTableRecord
  2
*Model_Space
340
22
  0
BLOCK_RECORD
  5
1B
330
1
100
AcDbSymbolTableRecord
100
AcDbBlockTableRecord
  2
*Paper_Space
340
1E
  0
BLOCK_RECORD
  5
23
330
1
100
AcDbSymbolTableRecord
100
AcDbBlockTableRecord
  2
*Paper_Space0
340
26
  0
BLOCK_RECORD
  5
8C
330
1
100
AcDbSymbolTableRecord
100
AcDbBlockTableRecord
  2
SW_CENTERMARKSYMBOL_0
340
0
102
{BLKREFS
331
97
102
}
  0
ENDTAB
  0
ENDSEC
  0
SECTION
  2
BLOCKS
  0
BLOCK
  5
20
330
1F
100
AcDbEntity
  8
0
100
AcDbBlockBegin
  2
*Model_Space
 70
     0
 10
0.0
 20
0.0
 30
0.0
  3
*Model_Space
  1

  0
ENDBLK
  5
21
330
1F
100
AcDbEntity
  8
0
100
AcDbBlockEnd
  0
BLOCK
  5
1C
330
1B
100
AcDbEntity
 67
     1
  8
0
100
AcDbBlockBegin
  2
*Paper_Space
 70
     0
 10
0.0
 20
0.0
 30
0.0
  3
*Paper_Space
  1

  0
ENDBLK
  5
1D
330
1B
100
AcDbEntity
 67
     1
  8
0
100
AcDbBlockEnd
  0
BLOCK
  5
24
330
23
100
AcDbEntity
  8
0
100
AcDbBlockBegin
  2
*Paper_Space0
 70
     0
 10
0.0
 20
0.0
 30
0.0
  3
*Paper_Space0
  1

  0
ENDBLK
  5
25
330
23
100
AcDbEntity
  8
0
100
AcDbBlockEnd
  0
BLOCK
  5
8D
330
8C
100
AcDbEntity
  8
0
100
AcDbBlockBegin
  2
SW_CENTERMARKSYMBOL_0
 70
     0
 10
0.0
 20
0.0
 30
0.0
  3
SW_CENTERMARKSYMBOL_0
  1

  0
LINE
  5
8F
330
8C
100
AcDbEntity
  8
FORMAT
 62
     0
100
AcDbLine
 10
0.0
 20
0.0
 30
0.0
 11
0.0
 21
2.5
 31
0.0
  0
LINE
  5
90
330
8C
100
AcDbEntity
  8
FORMAT
 62
     0
100
AcDbLine
 10
0.0
 20
0.0
 30
0.0
 11
-2.5
 21
0.0
 31
0.0
  0
LINE
  5
91
330
8C
100
AcDbEntity
  8
FORMAT
 62
     0
100
AcDbLine
 10
0.0
 20
0.0
 30
0.0
 11
0.0
 21
-2.5
 31
0.0
  0
LINE
  5
92
330
8C
100
AcDbEntity
  8
FORMAT
 62
     0
100
AcDbLine
 10
0.0
 20
0.0
 30
0.0
 11
2.5
 21
0.0
 31
0.0
  0
LINE
  5
93
330
8C
100
AcDbEntity
  8
FORMAT
 62
     0
100
AcDbLine
 10
0.0
 20
5.0
 30
0.0
 11
0.0
 21
18.5
 31
0.0
  0
LINE
  5
94
330
8C
100
AcDbEntity
  8
FORMAT
 62
     0
100
AcDbLine
 10
-5.0
 20
0.0
 30
0.0
 11
-18.5
 21
0.0
 31
0.0
  0
LINE
  5
95
330
8C
100
AcDbEntity
  8
FORMAT
 62
     0
100
AcDbLine
 10
0.0
 20
-5.0
 30
0.0
 11
0.0
 21
-18.5
 31
0.0
  0
LINE
  5
96
330
8C
100
AcDbEntity
  8
FORMAT
 62
     0
100
AcDbLine
 10
5.0
 20
0.0
 30
0.0
 11
18.5
 21
0.0
 31
0.0
  0
ENDBLK
  5
8E
330
8C
100
AcDbEntity
  8
0
100
AcDbBlockEnd
  0
ENDSEC
  0
SECTION
  2
ENTITIES
  0
CIRCLE
  5
83
330
1F
100
AcDbEntity
  8
0
  6
Continuous
 62
     7
370
    25
100
AcDbCircle
 10
139.8323425481
 20
108.7440552885
 30
0.0
 40
13.00000000000001
  0
CIRCLE
  5
84
330
1F
100
AcDbEntity
  8
0
  6
Continuous
 62
     7
370
    25
100
AcDbCircle
 10
139.8323425481
 20
108.7440552885
 30
0.0
 40
16.00000000000003
  0
CIRCLE
  5
85
330
1F
100
AcDbEntity
  8
0
  6
Continuous
 62
     7
370
    25
100
AcDbCircle
 10
139.8323425481
 20
108.7440552885
 30
0.0
 40
12.00000000000001
  0
LINE
  5
86
330
1F
100
AcDbEntity
  8
0
  6
Continuous
 62
     7
370
    25
100
AcDbLine
 10
139.8323425481
 20
82.1859429057
 30
0.0
 11
116.8323425481
 21
95.4649990971
 31
0.0
  0
LINE
  5
87
330
1F
100
AcDbEntity
  8
0
  6
Continuous
 62
     7
370
    25
100
AcDbLine
 10
116.8323425481
 20
95.4649990971
 30
0.0
 11
116.8323425481
 21
122.0231114798
 31
0.0
  0
LINE
  5
88
330
1F
100
AcDbEntity
  8
0
  6
Continuous
 62
     7
370
    25
100
AcDbLine
 10
116.8323425481
 20
122.0231114798
 30
0.0
 11
139.8323425481
 21
135.3021676712
 31
0.0
  0
LINE
  5
89
330
1F
100
AcDbEntity
  8
0
  6
Continuous
 62
     7
370
    25
100
AcDbLine
 10
139.8323425481
 20
135.3021676712
 30
0.0
 11
162.8323425481
 21
122.0231114798
 31
0.0
  0
LINE
  5
8A
330
1F
100
AcDbEntity
  8
0
  6
Continuous
 62
     7
370
    25
100
AcDbLine
 10
162.8323425481
 20
122.0231114798
 30
0.0
 11
162.8323425481
 21
95.4649990971
 31
0.0
  0
LINE
  5
8B
330
1F
100
AcDbEntity
  8
0
  6
Continuous
 62
     7
370
    25
100
AcDbLine
 10
162.8323425481
 20
95.4649990971
 30
0.0
 11
139.8323425481
 21
82.1859429057
 31
0.0
  0
INSERT
  5
97
330
1F
100
AcDbEntity
  8
FORMAT
 62
     7
100
AcDbBlockReference
  2
SW_CENTERMARKSYMBOL_0
 10
139.8323425481
 20
108.7440552885
 30
0.0
  0
LINE
  5
98
330
1F
100
AcDbEntity
  8
0
  6
Continuous
 62
     7
370
    25
100
AcDbLine
 10
162.3323425481
 20
140.1870325164
 30
0.0
 11
162.3323425481
 21
155.1870325164
 31
0.0
  0
LINE
  5
99
330
1F
100
AcDbEntity
  8
0
  6
Continuous
 62
     7
370
    25
100
AcDbLine
 10
117.3323425481
 20
155.1870325164
 30
0.0
 11
117.3323425481
 21
140.1870325164
 31
0.0
  0
LINE
  5
9A
330
1F
100
AcDbEntity
  8
0
  6
Continuous
 62
     7
370
    25
100
AcDbLine
 10
155.8323425481
 20
170.6870325164
 30
0.0
 11
155.8323425481
 21
208.1870325164
 31
0.0
  0
LINE
  5
9B
330
1F
100
AcDbEntity
  8
0
  6
Continuous
 62
     7
370
    25
100
AcDbLine
 10
123.8323425481
 20
208.1870325164
 30
0.0
 11
123.8323425481
 21
170.6870325164
 31
0.0
  0
LINE
  5
9C
330
1F
100
AcDbEntity
  8
0
  6
Continuous
 62
     7
370
    25
100
AcDbLine
 10
162.3323425481
 20
140.1870325164
 30
0.0
 11
117.3323425481
 21
140.1870325164
 31
0.0
  0
LINE
  5
9D
330
1F
100
AcDbEntity
  8
0
  6
Continuous
 62
     7
370
    25
100
AcDbLine
 10
116.8323425481
 20
170.6870325164
 30
0.0
 11
116.8323425481
 21
155.1870325164
 31
0.0
  0
LINE
  5
9E
330
1F
100
AcDbEntity
  8
0
  6
Continuous
 62
     7
370
    25
100
AcDbLine
 10
139.8323425481
 20
170.6870325164
 30
0.0
 11
116.8323425481
 21
170.6870325164
 31
0.0
  0
LINE
  5
9F
330
1F
100
AcDbEntity
  8
0
  6
Continuous
 62
     7
370
    25
100
AcDbLine
 10
139.8323425481
 20
170.6870325164
 30
0.0
 11
139.8323425481
 21
155.1870325164
 31
0.0
  0
LINE
  5
A0
330
1F
100
AcDbEntity
  8
0
  6
Continuous
 62
     7
370
    25
100
AcDbLine
 10
116.8323425481
 20
155.1870325164
 30
0.0
 11
139.8323425481
 21
155.1870325164
 31
0.0
  0
LINE
  5
A1
330
1F
100
AcDbEntity
  8
0
  6
Continuous
 62
     7
370
    25
100
AcDbLine
 10
162.8323425481
 20
170.6870325164
 30
0.0
 11
139.8323425481
 21
170.6870325164
 31
0.0
  0
LINE
  5
A2
330
1F
100
AcDbEntity
  8
0
  6
Continuous
 62
     7
370
    25
100
AcDbLine
 10
162.8323425481
 20
170.6870325164
 30
0.0
 11
162.8323425481
 21
155.1870325164
 31
0.0
  0
LINE
  5
A3
330
1F
100
AcDbEntity
  8
0
  6
Continuous
 62
     7
370
    25
100
AcDbLine
 10
139.8323425481
 20
155.1870325164
 30
0.0
 11
162.8323425481
 21
155.1870325164
 31
0.0
  0
LINE
  5
A4
330
1F
100
AcDbEntity
  8
0
  6
Continuous
 62
     7
370
    25
100
AcDbLine
 10
155.8323425481
 20
208.1870325164
 30
0.0
 11
123.8323425481
 21
208.1870325164
 31
0.0
  0
LINE
  5
A5
330
1F
100
AcDbEntity
  8
0
  6
Continuous
 62
     7
370
    25
100
AcDbLine
 10
193.119244041
 20
86.2440552885
 30
0.0
 11
208.119244041
 21
86.2440552885
 31
0.0
  0
LINE
  5
A6
330
1F
100
AcDbEntity
  8
0
  6
Continuous
 62
     7
370
    25
100
AcDbLine
 10
208.119244041
 20
131.2440552885
 30
0.0
 11
193.119244041
 21
131.2440552885
 31
0.0
  0
LINE
  5
A7
330
1F
100
AcDbEntity
  8
0
  6
Continuous
 62
     7
370
    25
100
AcDbLine
 10
223.619244041
 20
92.7440552885
 30
0.0
 11
261.119244041
 21
92.7440552885
 31
0.0
  0
LINE
  5
A8
330
1F
100
AcDbEntity
  8
0
  6
Continuous
 62
     7
370
    25
100
AcDbLine
 10
261.119244041
 20
124.7440552885
 30
0.0
 11
223.619244041
 21
124.7440552885
 31
0.0
  0
LINE
  5
A9
330
1F
100
AcDbEntity
  8
0
  6
Continuous
 62
     7
370
    25
100
AcDbLine
 10
193.119244041
 20
108.7440552885
 30
0.0
 11
193.119244041
 21
131.2440552885
 31
0.0
  0
LINE
  5
AA
330
1F
100
AcDbEntity
  8
0
  6
Continuous
 62
     7
370
    25
100
AcDbLine
 10
193.119244041
 20
86.2440552885
 30
0.0
 11
193.119244041
 21
108.7440552885
 31
0.0
  0
LINE
  5
AB
330
1F
100
AcDbEntity
  8
0
  6
Continuous
 62
     7
370
    25
100
AcDbLine
 10
223.619244041
 20
95.4649990971
 30
0.0
 11
208.119244041
 21
95.4649990971
 31
0.0
  0
LINE
  5
AC
330
1F
100
AcDbEntity
  8
0
  6
Continuous
 62
     7
370
    25
100
AcDbLine
 10
223.619244041
 20
82.1859429057
 30
0.0
 11
223.619244041
 21
95.4649990971
 31
0.0
  0
LINE
  5
AD
330
1F
100
AcDbEntity
  8
0
  6
Continuous
 62
     7
370
    25
100
AcDbLine
 10
223.619244041
 20
82.1859429057
 30
0.0
 11
208.119244041
 21
82.1859429057
 31
0.0
  0
LINE
  5
AE
330
1F
100
AcDbEntity
  8
0
  6
Continuous
 62
     7
370
    25
100
AcDbLine
 10
208.119244041
 20
95.4649990971
 30
0.0
 11
208.119244041
 21
82.1859429057
 31
0.0
  0
LINE
  5
AF
330
1F
100
AcDbEntity
  8
0
  6
Continuous
 62
     7
370
    25
100
AcDbLine
 10
223.619244041
 20
122.0231114798
 30
0.0
 11
208.119244041
 21
122.0231114798
 31
0.0
  0
LINE
  5
B0
330
1F
100
AcDbEntity
  8
0
  6
Continuous
 62
     7
370
    25
100
AcDbLine
 10
223.619244041
 20
95.4649990971
 30
0.0
 11
223.619244041
 21
122.0231114798
 31
0.0
  0
LINE
  5
B1
330
1F
100
AcDbEntity
  8
0
  6
Continuous
 62
     7
370
    25
100
AcDbLine
 10
208.119244041
 20
122.0231114798
 30
0.0
 11
208.119244041
 21
95.4649990971
 31
0.0
  0
LINE
  5
B2
330
1F
100
AcDbEntity
  8
0
  6
Continuous
 62
     7
370
    25
100
AcDbLine
 10
223.619244041
 20
135.3021676712
 30
0.0
 11
208.119244041
 21
135.3021676712
 31
0.0
  0
LINE
  5
B3
330
1F
100
AcDbEntity
  8
0
  6
Continuous
 62
     7
370
    25
100
AcDbLine
 10
223.619244041
 20
122.0231114798
 30
0.0
 11
223.619244041
 21
135.3021676712
 31
0.0
  0
LINE
  5
B4
330
1F
100
AcDbEntity
  8
0
  6
Continuous
 62
     7
370
    25
100
AcDbLine
 10
208.119244041
 20
135.3021676712
 30
0.0
 11
208.119244041
 21
122.0231114798
 31
0.0
  0
LINE
  5
B5
330
1F
100
AcDbEntity
  8
0
  6
Continuous
 62
     7
370
    25
100
AcDbLine
 10
261.119244041
 20
108.7440552885
 30
0.0
 11
261.119244041
 21
124.7440552885
 31
0.0
  0
LINE
  5
B6
330
1F
100
AcDbEntity
  8
0
  6
Continuous
 62
     7
370
    25
100
AcDbLine
 10
261.119244041
 20
92.7440552885
 30
0.0
 11
261.119244041
 21
108.7440552885
 31
0.0
  0
LINE
  5
B7
330
1F
100
AcDbEntity
  8
0
  6
Continuous
 62
     7
370
    25
100
AcDbLine
 10
86.6317308965
 20
131.2440552885
 30
0.0
 11
71.6317308965
 21
131.2440552885
 31
0.0
  0
LINE
  5
B8
330
1F
100
AcDbEntity
  8
0
  6
Continuous
 62
     7
370
    25
100
AcDbLine
 10
71.6317308965
 20
86.2440552885
 30
0.0
 11
86.6317308965
 21
86.2440552885
 31
0.0
  0
LINE
  5
B9
330
1F
100
AcDbEntity
  8
0
  6
Continuous
 62
     7
370
    25
100
AcDbLine
 10
56.1317308965
 20
124.7440552885
 30
0.0
 11
18.6317308965
 21
124.7440552885
 31
0.0
  0
LINE
  5
BA
330
1F
100
AcDbEntity
  8
0
  6
Continuous
 62
     7
370
    25
100
AcDbLine
 10
18.6317308965
 20
92.7440552885
 30
0.0
 11
56.1317308965
 21
92.7440552885
 31
0.0
  0
LINE
  5
BB
330
1F
100
AcDbEntity
  8
0
  6
Continuous
 62
     7
370
    25
100
AcDbLine
 10
86.6317308965
 20
131.2440552885
 30
0.0
 11
86.6317308965
 21
86.2440552885
 31
0.0
  0
LINE
  5
BC
330
1F
100
AcDbEntity
  8
0
  6
Continuous
 62
     7
370
    25
100
AcDbLine
 10
56.1317308965
 20
82.1859429057
 30
0.0
 11
71.6317308965
 21
82.1859429057
 31
0.0
  0
LINE
  5
BD
330
1F
100
AcDbEntity
  8
0
  6
Continuous
 62
     7
370
    25
100
AcDbLine
 10
56.1317308965
 20
95.4649990971
 30
0.0
 11
56.1317308965
 21
82.1859429057
 31
0.0
  0
LINE
  5
BE
330
1F
100
AcDbEntity
  8
0
  6
Continuous
 62
     7
370
    25
100
AcDbLine
 10
56.1317308965
 20
95.4649990971
 30
0.0
 11
71.6317308965
 21
95.4649990971
 31
0.0
  0
LINE
  5
BF
330
1F
100
AcDbEntity
  8
0
  6
Continuous
 62
     7
370
    25
100
AcDbLine
 10
71.6317308965
 20
82.1859429057
 30
0.0
 11
71.6317308965
 21
95.4649990971
 31
0.0
  0
LINE
  5
C0
330
1F
100
AcDbEntity
  8
0
  6
Continuous
 62
     7
370
    25
100
AcDbLine
 10
56.1317308965
 20
122.0231114798
 30
0.0
 11
56.1317308965
 21
95.4649990971
 31
0.0
  0
LINE
  5
C1
330
1F
100
AcDbEntity
  8
0
  6
Continuous
 62
     7
370
    25
100
AcDbLine
 10
56.1317308965
 20
122.0231114798
 30
0.0
 11
71.6317308965
 21
122.0231114798
 31
0.0
  0
LINE
  5
C2
330
1F
100
AcDbEntity
  8
0
  6
Continuous
 62
     7
370
    25
100
AcDbLine
 10
71.6317308965
 20
95.4649990971
 30
0.0
 11
71.6317308965
 21
122.0231114798
 31
0.0
  0
LINE
  5
C3
330
1F
100
AcDbEntity
  8
0
  6
Continuous
 62
     7
370
    25
100
AcDbLine
 10
56.1317308965
 20
135.3021676712
 30
0.0
 11
56.1317308965
 21
122.0231114798
 31
0.0
  0
LINE
  5
C4
330
1F
100
AcDbEntity
  8
0
  6
Continuous
 62
     7
370
    25
100
AcDbLine
 10
56.1317308965
 20
135.3021676712
 30
0.0
 11
71.6317308965
 21
135.3021676712
 31
0.0
  0
LINE
  5
C5
330
1F
100
AcDbEntity
  8
0
  6
Continuous
 62
     7
370
    25
100
AcDbLine
 10
71.6317308965
 20
122.0231114798
 30
0.0
 11
71.6317308965
 21
135.3021676712
 31
0.0
  0
LINE
  5
C6
330
1F
100
AcDbEntity
  8
0
  6
Continuous
 62
     7
370
    25
100
AcDbLine
 10
18.6317308965
 20
124.7440552885
 30
0.0
 11
18.6317308965
 21
92.7440552885
 31
0.0
  0
LINE
  5
C7
330
1F
100
AcDbEntity
  8
0
  6
Continuous
 62
     7
370
    25
100
AcDbLine
 10
259.2583170459
 20
43.7276375628
 30
0.0
 11
253.6660855532
 21
46.9559640866
 31
0.0
  0
LINE
  5
C8
330
1F
100
AcDbEntity
  8
0
  6
Continuous
 62
     7
370
    25
100
AcDbLine
 10
228.6005871093
 20
9.4658515862
 30
0.0
 11
236.7601455616
 21
4.7554387556
 31
0.0
  0
LINE
  5
C9
330
1F
100
AcDbEntity
  8
0
  6
Continuous
 62
     7
370
    25
100
AcDbLine
 10
234.4418243386
 20
50.5485436626
 30
0.0
 11
207.9253200441
 21
65.8561957593
 31
0.0
  0
LINE
  5
CA
330
1F
100
AcDbEntity
  8
0
  6
Continuous
 62
     7
370
    25
100
AcDbLine
 10
191.926620322
 20
38.1426321631
 30
0.0
 11
218.4431246165
 21
22.8349800664
 31
0.0
  0
LWPOLYLINE
  5
CB
330
1F
100
AcDbEntity
  8
0
  6
Continuous
 62
     7
370
    25
100
AcDbPolyline
 90
       59
 70
   128
 43
0.0
 10
259.2583170459
 20
43.7276375628
 10
259.7840000059
 20
43.3943832853
 10
260.3507223665
 20
42.9605832032
 10
260.8806128671
 20
42.4709181335
 10
261.3720901063
 20
41.9268494292
 10
261.8236873227
 20
41.3300008052
 10
262.2340567729
 20
40.6821534922
 10
262.6019737529
 20
39.9852409213
 10
262.9263402541
 20
39.2413429536
 10
263.2061882392
 20
38.452679673
 10
263.4406825319
 20
37.6216047606
 10
263.629123309
 20
36.7505984706
 10
263.7709481893
 20
35.8422602282
 10
263.8657339114
 20
34.8993008716
 10
263.9131975977
 20
33.9245345623
 10
263.9131975977
 20
32.9208703859
 10
263.8657339114
 20
31.8913036709
 10
263.7709481893
 20
30.838907049
 10
263.629123309
 20
29.7668212853
 10
263.4406825319
 20
28.6782459052
 10
263.2061882392
 20
27.5764296453
 10
262.9263402541
 20
26.4646607585
 10
262.6019737529
 20
25.3462572002
 10
262.2340567729
 20
24.224556726
 10
261.8236873227
 20
23.1029069311
 10
261.3720901063
 20
21.9846552593
 10
260.8806128671
 20
20.8731390131
 10
260.3507223665
 20
19.7716753938
 10
259.7840000059
 20
18.6835516019
 10
259.1821371076
 20
17.6120150263
 10
258.546929867
 20
16.5602635534
 10
257.8802739923
 20
15.5314360229
 10
257.1841590465
 20
14.5286028606
 10
256.4606625102
 20
13.5547569147
 10
255.7119435816
 20
12.6128045243
 10
254.9402367321
 20
11.7055568455
 10
254.1478450382
 20
10.8357214621
 10
253.3371333083
 20
10.0058943046
 10
252.5105210247
 20
9.2185519035
 10
251.6704751235
 20
8.476043998
 10
250.8195026317
 20
7.7805865234
 10
249.9601431858
 20
7.1342549982
 10
249.094961452
 20
6.5389783297
 10
248.2265394727
 20
5.9965330574
 10
247.3574689604
 20
5.5085380513
 10
246.4903435631
 20
5.0764496802
 10
245.6277511238
 20
4.7015574657
 10
244.7722659574
 20
4.3849802335
 10
243.9264411678
 20
4.1276627744
 10
243.0928010287
 20
3.9303730249
 10
242.2738334498
 20
3.7936997751
 10
241.4719825523
 20
3.7180509118
 10
240.6896413745
 20
3.7036522009
 10
239.9291447298
 20
3.7505466138
 10
239.1927622393
 20
3.8585941991
 10
238.4826915576
 20
4.0274725003
 10
237.8010518148
 20
4.2566775184
 10
237.1498772917
 20
4.5455252153
 10
236.7601455616
 20
4.7554387556
  0
LWPOLYLINE
  5
CC
330
1F
100
AcDbEntity
  8
0
  6
Continuous
 62
     7
370
    25
100
AcDbPolyline
 90
       98
 70
   128
 43
0.0
 10
188.6122616841
 20
45.4681490666
 10
188.6359884967
 20
46.3275188791
 10
188.707069416
 20
47.2106785908
 10
188.8252063041
 20
48.1139239228
 10
188.9899036536
 20
49.0334663503
 10
189.2004706667
 20
49.9654489928
 10
189.4560241521
 20
50.9059627913
 10
189.7554922297
 20
51.851062904
 10
190.0976188264
 20
52.7967852525
 10
190.4809689443
 20
53.7391631488
 10
190.9039346797
 20
54.6742439324
 10
191.3647419674
 20
55.5981055495
 10
191.8614580215
 20
56.5068730034
 10
192.3919994422
 20
57.3967346077
 10
192.9541409545
 20
58.2639579734
 10
193.5455247414
 20
59.1049056646
 10
194.1636703338
 20
59.9160504541
 10
194.8059850144
 20
60.693990119
 10
195.469774692
 20
61.4354617099
 10
196.1522552022
 20
62.1373552373
 10
196.8505639845
 20
62.7967267158
 10
197.5617720892
 20
63.4108105122
 10
198.2828964622
 20
63.9770309458
 10
199.0109124575
 20
64.4930130913
 10
199.7427665229
 20
64.9565927401
 10
200.4753890081
 20
65.3658254782
 10
201.2057070398
 20
65.7189948413
 10
201.9306574104
 20
66.0146195143
 10
202.6471994261
 20
66.2514595445
 10
203.3523276606
 20
66.4285215426
 10
204.0430845612
 20
66.5450628491
 10
204.7165728532
 20
66.6005946491
 10
205.3699676928
 20
66.5948840231
 10
206.0005285149
 20
66.5279549234
 10
206.6056105283
 20
66.4000880738
 10
207.1826758088
 20
66.2118197924
 10
207.729303944
 20
65.9639397418
 10
208.2432021855
 20
65.6574876171
 10
208.7222150656
 20
65.2937487849
 10
209.1643334377
 20
64.8742488924
 10
209.5677029038
 20
64.4007474678
 10
209.9306315921
 20
63.8752305408
 10
210.2515972536
 20
63.2999023119
 10
210.5292536468
 20
62.6771759076
 10
210.7624361842
 20
62.009663259
 10
210.9501668172
 20
61.300164146
 10
211.0916581384
 20
60.5516544544
 10
211.186316684
 20
59.7672736942
 10
211.2337454231
 20
58.9503118307
 10
211.2337454231
 20
58.1041954859
 10
211.186316684
 20
57.2324735658
 10
211.0916581384
 20
56.3388023752
 10
210.9501668172
 20
55.4269302815
 10
210.7624361842
 20
54.5006819932
 10
210.5292536468
 20
53.5639425175
 10
210.2515972536
 20
52.6206408653
 10
209.9306315921
 20
51.6747335716
 10
209.5677029038
 20
50.7301881003
 10
209.1643334377
 20
49.7909662034
 10
208.7222150656
 20
48.8610073038
 10
208.2432021855
 20
47.9442119725
 10
207.729303944
 20
47.0444255675
 10
207.1826758088
 20
46.1654221059
 10
206.6056105283
 20
45.3108884335
 10
206.0005285149
 20
44.4844087617
 10
205.3699676928
 20
43.6894496333
 10
204.7165728532
 20
42.9293453832
 10
204.0430845612
 20
42.2072841528
 10
203.3523276606
 20
41.5262945178
 10
202.6471994261
 20
40.8892327854
 10
201.9306574104
 20
40.298771014
 10
201.2057070398
 20
39.7573858053
 10
200.4753890081
 20
39.2673479171
 10
199.7427665229
 20
38.8307127386
 10
199.0109124575
 20
38.4493116695
 10
198.2828964622
 20
38.1247444384
 10
197.5617720892
 20
37.858372393
 10
196.8505639845
 20
37.6513127904
 10
196.1522552022
 20
37.5044341104
 10
195.469774692
 20
37.4183524132
 10
194.8059850144
 20
37.3934287555
 10
194.1636703338
 20
37.4297676756
 10
193.5455247414
 20
37.5272167556
 10
192.9541409545
 20
37.6853672601
 10
192.3919994422
 20
37.9035558509
 10
191.8614580215
 20
38.1808673693
 10
191.3647419674
 20
38.5161386744
 10
190.9039346797
 20
38.9079635218
 10
190.4809689443
 20
39.354698462
 10
190.0976188264
 20
39.8544697333
 10
189.7554922297
 20
40.4051811214
 10
189.4560241521
 20
41.0045227513
 10
189.2004706667
 20
41.6499807759
 10
188.9899036536
 20
42.33884792
 10
188.8252063041
 20
43.0682348354
 10
188.707069416
 20
43.8350822198
 10
188.6359884967
 20
44.6361736488
 10
188.6122616841
 20
45.4681490666
  0
LWPOLYLINE
  5
CD
330
1F
100
AcDbEntity
  8
0
  6
Continuous
 62
     7
370
    25
100
AcDbPolyline
 90
       50
 70
   128
 43
0.0
 10
234.4418243386
 20
50.5485436626
 10
234.75970648
 20
50.3498355204
 10
235.2387193601
 20
49.9860966882
 10
235.6808377322
 20
49.5665967957
 10
236.0842071983
 20
49.0930953712
 10
236.4471358866
 20
48.5675784441
 10
236.7681015481
 20
47.9922502152
 10
237.0457579413
 20
47.3695238109
 10
237.2789404787
 20
46.7020111623
 10
237.4666711117
 20
45.9925120493
 10
237.6081624329
 20
45.2440023578
 10
237.7028209785
 20
44.4596215975
 10
237.7502497176
 20
43.642659734
 10
237.7502497176
 20
42.7965433892
 10
237.7028209785
 20
41.9248214691
 10
237.6081624329
 20
41.0311502785
 10
237.4666711117
 20
40.1192781848
 10
237.2789404787
 20
39.1930298965
 10
237.0457579413
 20
38.2562904208
 10
236.7681015481
 20
37.3129887686
 10
236.4471358866
 20
36.367081475
 10
236.0842071983
 20
35.4225360037
 10
235.6808377322
 20
34.4833141067
 10
235.2387193601
 20
33.5533552072
 10
234.75970648
 20
32.6365598758
 10
234.2458082385
 20
31.7367734708
 10
233.6991801033
 20
30.8577700092
 10
233.1221148228
 20
30.0032363368
 10
232.5170328094
 20
29.176756665
 10
231.8864719873
 20
28.3817975366
 10
231.2330771477
 20
27.6216932865
 10
230.5595888557
 20
26.8996320561
 10
229.8688319551
 20
26.2186424211
 10
229.1637037206
 20
25.5815806887
 10
228.4471617049
 20
24.9911189173
 10
227.7222113343
 20
24.4497337086
 10
226.9918933026
 20
23.9596958204
 10
226.2592708174
 20
23.5230606419
 10
225.527416752
 20
23.1416595728
 10
224.7994007567
 20
22.8170923417
 10
224.0782763837
 20
22.5507202964
 10
223.367068279
 20
22.3436606937
 10
222.6687594967
 20
22.1967820137
 10
221.9862789865
 20
22.1107003165
 10
221.3224893088
 20
22.0857766588
 10
220.6801746283
 20
22.1221155789
 10
220.0620290359
 20
22.2195646589
 10
219.470645249
 20
22.3777151634
 10
218.9085037367
 20
22.5959037542
 10
218.4431246165
 20
22.8349800664
  0
LWPOLYLINE
  5
CE
330
1F
100
AcDbEntity
  8
0
  6
Continuous
 62
     7
370
    25
100
AcDbPolyline
 90
       88
 70
   128
 43
0.0
 10
190.7335820276
 20
46.6927612343
 10
190.7575444553
 20
47.472551232
 10
190.8293068095
 20
48.2759421958
 10
190.9484949544
 20
49.0987456173
 10
191.1144874982
 20
49.9366717804
 10
191.3264190328
 20
50.7853521261
 10
191.5831846451
 20
51.6403620281
 10
191.8834456782
 20
52.4972438606
 10
192.2256367101
 20
53.3515302386
 10
192.6079737152
 20
54.1987673083
 10
193.0284633654
 20
55.0345379681
 10
193.4849134224
 20
55.8544848966
 10
193.9749441668
 20
56.6543332704
 10
194.4960008054
 20
57.4299130502
 10
195.04536679
 20
58.1771807224
 10
195.6201779809
 20
58.8922403791
 10
196.2174375785
 20
59.5713640306
 10
196.8340317479
 20
60.2110110404
 10
197.4667458527
 20
60.8078465854
 10
198.1122812144
 20
61.3587590413
 10
198.7672723106
 20
61.8608762056
 10
199.428304321
 20
62.311580272
 10
200.0919309308
 20
62.7085214782
 10
200.754692298
 20
63.0496303565
 10
201.4131330919
 20
63.3331285231
 10
202.063820507
 20
63.5575379499
 10
202.7033621604
 20
63.7216886701
 10
203.3284237781
 20
63.8247248778
 10
203.9357465781
 20
63.8661093899
 10
204.5221642608
 20
63.8456264468
 10
205.0846195157
 20
63.7633828369
 10
205.6201799616
 20
63.6198073405
 10
206.1260534343
 20
63.4156484937
 10
206.5996025439
 20
63.1519706861
 10
207.0383584244
 20
62.8301486118
 10
207.440033606
 20
62.4518601021
 10
207.8025339401
 20
62.019077378
 10
208.123969518
 20
61.5340567684
 10
208.4026645233
 20
60.999326946
 10
208.6371659693
 20
60.4176757446
 10
208.8262512741
 20
59.7921356243
 10
208.9689346344
 20
59.1259678615
 10
209.0644721652
 20
58.4226455465
 10
209.1123657783
 20
57.6858354762
 10
209.1123657783
 20
56.9193790371
 10
209.0644721652
 20
56.1272721783
 10
208.9689346344
 20
55.313644578
 10
208.8262512741
 20
54.482738114
 10
208.6371659693
 20
53.6388847476
 10
208.4026645233
 20
52.7864839398
 10
208.123969518
 20
51.9299797135
 10
207.8025339401
 20
51.0738374852
 10
207.440033606
 20
50.2225207841
 10
207.0383584244
 20
49.3804679812
 10
206.5996025439
 20
48.55206915
 10
206.1260534343
 20
47.7416431784
 10
205.6201799616
 20
46.9534152522
 10
205.0846195157
 20
46.1914948268
 10
204.5221642608
 20
45.4598542024
 10
203.9357465781
 20
44.7623078146
 10
203.3284237781
 20
44.1024923472
 10
202.7033621604
 20
43.4838477726
 10
202.063820507
 20
42.909599417
 10
201.4131330919
 20
42.3827411456
 10
200.754692298
 20
41.9060197533
 10
200.0919309308
 20
41.4819206448
 10
199.428304321
 20
41.1126548766
 10
198.7672723106
 20
40.8001476292
 10
198.1122812144
 20
40.5460281708
 10
197.4667458527
 20
40.3516213626
 10
196.8340317479
 20
40.2179407517
 10
196.2174375785
 20
40.1456832868
 10
195.6201779809
 20
40.135225685
 10
195.04536679
 20
40.1866224673
 10
194.4960008054
 20
40.2996056747
 10
193.9749441668
 20
40.473586265
 10
193.4849134224
 20
40.7076571841
 10
193.0284633654
 20
41.0005980946
 10
192.6079737152
 20
41.3508817381
 10
192.2256367101
 20
41.756681898
 10
191.8834456782
 20
42.2158829201
 10
191.5831846451
 20
42.726090743
 10
191.3264190328
 20
43.2846453792
 10
191.1144874982
 20
43.8886347836
 10
190.9484949544
 20
44.534910035
 10
190.8293068095
 20
45.2201017535
 10
190.7575444553
 20
45.9406376668
 10
190.7335820276
 20
46.6927612343
  0
LWPOLYLINE
  5
CF
330
1F
100
AcDbEntity
  8
0
  6
Continuous
 62
     7
370
    25
100
AcDbPolyline
 90
       26
 70
   128
 43
0.0
 10
197.8046498395
 20
42.6107206752
 10
197.8286122672
 20
43.3905106729
 10
197.9003746214
 20
44.1939016367
 10
198.0195627663
 20
45.0167050582
 10
198.1855553101
 20
45.8546312213
 10
198.3974868446
 20
46.703311567
 10
198.654252457
 20
47.558321469
 10
198.9545134901
 20
48.4152033015
 10
199.296704522
 20
49.2694896795
 10
199.6790415271
 20
50.1167267492
 10
200.0995311773
 20
50.952497409
 10
200.5559812342
 20
51.7724443375
 10
201.0460119787
 20
52.5722927113
 10
201.5670686173
 20
53.3478724911
 10
202.1164346019
 20
54.0951401633
 10
202.6912457927
 20
54.81019982
 10
203.2885053904
 20
55.4893234715
 10
203.9050995598
 20
56.1289704813
 10
204.5378136646
 20
56.7258060263
 10
205.1833490263
 20
57.2767184822
 10
205.8383401225
 20
57.7788356465
 10
206.4993721329
 20
58.2295397129
 10
207.1629987426
 20
58.6264809191
 10
207.8257601099
 20
58.9675897974
 10
208.4842009038
 20
59.251087964
 10
208.9156030732
 20
59.4061939206
  0
ARC
  5
D0
330
1F
100
AcDbEntity
  8
0
  6
Continuous
 62
     7
370
    25
100
AcDbCircle
 10
208.1662119983
 20
42.5512191559
 30
0.0
 40
10.36173300186667
100
AcDbArc
 50
179.6709812279
 51
191.3579964568
  0
ARC
  5
D1
330
1F
100
AcDbEntity
  8
0
  6
Continuous
 62
     7
370
    25
100
AcDbCircle
 10
217.0027571318
 20
42.0382661943
 30
0.0
 40
17.79310485359563
100
AcDbArc
 50
116.3716000858
 51
178.1563146518
  0
ARC
  5
D2
330
1F
100
AcDbEntity
  8
0
  6
Continuous
 62
     7
370
    25
100
AcDbCircle
 10
209.003441276
 20
42.5658546291
 30
0.0
 40
9.784680737645958
100
AcDbArc
 50
179.737278695
 51
188.8235624327
  0
LINE
  5
D3
330
1F
100
AcDbEntity
  8
0
  6
Continuous
 62
     7
370
    25
100
AcDbLine
 10
226.4424744775
 20
15.0059792174
 30
0.0
 11
237.4026295859
 21
8.6788163507
 31
0.0
  0
LINE
  5
D4
330
1F
100
AcDbEntity
  8
0
  6
Continuous
 62
     7
370
    25
100
AcDbLine
 10
242.7059304448
 20
35.2375638269
 30
0.0
 11
226.4424744775
 21
15.0059792174
 31
0.0
  0
LINE
  5
D5
330
1F
100
AcDbEntity
  8
0
  6
Continuous
 62
     7
370
    25
100
AcDbLine
 10
242.7059304448
 20
35.2375638269
 30
0.0
 11
253.6660855532
 21
28.9104009603
 31
0.0
  0
LINE
  5
D6
330
1F
100
AcDbEntity
  8
0
  6
Continuous
 62
     7
370
    25
100
AcDbLine
 10
237.4026295859
 20
8.6788163507
 30
0.0
 11
253.6660855532
 21
28.9104009603
 31
0.0
  0
LINE
  5
D7
330
1F
100
AcDbEntity
  8
0
  6
Continuous
 62
     7
370
    25
100
AcDbLine
 10
226.4424744775
 20
15.0059792174
 30
0.0
 11
210.1790185102
 21
16.460177255
 31
0.0
  0
LINE
  5
D8
330
1F
100
AcDbEntity
  8
0
  6
Continuous
 62
     7
370
    25
100
AcDbLine
 10
210.1790185102
 20
16.460177255
 30
0.0
 11
210.1790185102
 21
27.6057469729
 31
0.0
  0
LINE
  5
D9
330
1F
100
AcDbEntity
  8
0
  6
Continuous
 62
     7
370
    25
100
AcDbLine
 10
224.6793860815
 20
56.1842793084
 30
0.0
 11
226.4424744775
 21
58.3775445116
 31
0.0
  0
LINE
  5
DA
330
1F
100
AcDbEntity
  8
0
  6
Continuous
 62
     7
370
    25
100
AcDbLine
 10
226.4424744775
 20
58.3775445116
 30
0.0
 11
242.7059304448
 21
56.923346474
 31
0.0
  0
LINE
  5
DB
330
1F
100
AcDbEntity
  8
0
  6
Continuous
 62
     7
370
    25
100
AcDbLine
 10
242.7059304448
 20
56.923346474
 30
0.0
 11
242.7059304448
 21
35.2375638269
 31
0.0
  0
LINE
  5
DC
330
1F
100
AcDbEntity
  8
0
  6
Continuous
 62
     7
370
    25
100
AcDbLine
 10
242.7059304448
 20
56.923346474
 30
0.0
 11
253.6660855532
 21
50.5961836074
 31
0.0
  0
LINE
  5
DD
330
1F
100
AcDbEntity
  8
0
  6
Continuous
 62
     7
370
    25
100
AcDbLine
 10
253.6660855532
 20
28.9104009603
 30
0.0
 11
253.6660855532
 21
50.5961836074
 31
0.0
  0
LINE
  5
DE
330
1F
100
AcDbEntity
  8
0
  6
Continuous
 62
     7
370
    25
100
AcDbLine
 10
210.1790185102
 20
16.460177255
 30
0.0
 11
221.1391736186
 21
10.1330143883
 31
0.0
  0
LINE
  5
DF
330
1F
100
AcDbEntity
  8
0
  6
Continuous
 62
     7
370
    25
100
AcDbLine
 10
221.1391736186
 20
10.1330143883
 30
0.0
 11
237.4026295859
 21
8.6788163507
 31
0.0
  0
LINE
  5
E0
330
1F
100
AcDbEntity
  8
0
  6
Continuous
 62
     7
370
    25
100
AcDbLine
 10
117.3323425481
 20
74.9232335961
 30
0.0
 11
117.3323425481
 21
59.9232335961
 31
0.0
  0
LINE
  5
E1
330
1F
100
AcDbEntity
  8
0
  6
Continuous
 62
     7
370
    25
100
AcDbLine
 10
162.3323425481
 20
59.9232335961
 30
0.0
 11
162.3323425481
 21
74.9232335961
 31
0.0
  0
LINE
  5
E2
330
1F
100
AcDbEntity
  8
0
  6
Continuous
 62
     7
370
    25
100
AcDbLine
 10
123.8323425481
 20
44.4232335961
 30
0.0
 11
123.8323425481
 21
6.9232335961
 31
0.0
  0
LINE
  5
E3
330
1F
100
AcDbEntity
  8
0
  6
Continuous
 62
     7
370
    25
100
AcDbLine
 10
155.8323425481
 20
6.9232335961
 30
0.0
 11
155.8323425481
 21
44.4232335961
 31
0.0
  0
LINE
  5
E4
330
1F
100
AcDbEntity
  8
0
  6
Continuous
 62
     7
370
    25
100
AcDbLine
 10
117.3323425481
 20
74.9232335961
 30
0.0
 11
162.3323425481
 21
74.9232335961
 31
0.0
  0
LINE
  5
E5
330
1F
100
AcDbEntity
  8
0
  6
Continuous
 62
     7
370
    25
100
AcDbLine
 10
162.8323425481
 20
44.4232335961
 30
0.0
 11
162.8323425481
 21
59.9232335961
 31
0.0
  0
LINE
  5
E6
330
1F
100
AcDbEntity
  8
0
  6
Continuous
 62
     7
370
    25
100
AcDbLine
 10
139.8323425481
 20
44.4232335961
 30
0.0
 11
162.8323425481
 21
44.4232335961
 31
0.0
  0
LINE
  5
E7
330
1F
100
AcDbEntity
  8
0
  6
Continuous
 62
     7
370
    25
100
AcDbLine
 10
139.8323425481
 20
44.4232335961
 30
0.0
 11
139.8323425481
 21
59.9232335961
 31
0.0
  0
LINE
  5
E8
330
1F
100
AcDbEntity
  8
0
  6
Continuous
 62
     7
370
    25
100
AcDbLine
 10
162.8323425481
 20
59.9232335961
 30
0.0
 11
139.8323425481
 21
59.9232335961
 31
0.0
  0
LINE
  5
E9
330
1F
100
AcDbEntity
  8
0
  6
Continuous
 62
     7
370
    25
100
AcDbLine
 10
116.8323425481
 20
44.4232335961
 30
0.0
 11
139.8323425481
 21
44.4232335961
 31
0.0
  0
LINE
  5
EA
330
1F
100
AcDbEntity
  8
0
  6
Continuous
 62
     7
370
    25
100
AcDbLine
 10
116.8323425481
 20
44.4232335961
 30
0.0
 11
116.8323425481
 21
59.9232335961
 31
0.0
  0
LINE
  5
EB
330
1F
100
AcDbEntity
  8
0
  6
Continuous
 62
     7
370
    25
100
AcDbLine
 10
139.8323425481
 20
59.9232335961
 30
0.0
 11
116.8323425481
 21
59.9232335961
 31
0.0
  0
LINE
  5
EC
330
1F
100
AcDbEntity
  8
0
  6
Continuous
 62
     7
370
    25
100
AcDbLine
 10
123.8323425481
 20
6.9232335961
 30
0.0
 11
155.8323425481
 21
6.9232335961
 31
0.0
  0
ENDSEC
  0
SECTION
  2
OBJECTS
  0
DICTIONARY
  5
C
330
0
100
AcDbDictionary
281
     1
  3
ACAD_GROUP
350
D
  3
ACAD_LAYOUT
350
1A
  3
ACAD_MLINESTYLE
350
17
  3
ACAD_PLOTSETTINGS
350
19
  3
ACAD_PLOTSTYLENAME
350
E
  3
ACAD_SCALELIST
350
47
  3
DWGPROPS
350
ED
  0
DICTIONARY
  5
D
102
{ACAD_REACTORS
330
C
102
}
330
C
100
AcDbDictionary
281
     1
  0
DICTIONARY
  5
1A
102
{ACAD_REACTORS
330
C
102
}
330
C
100
AcDbDictionary
281
     1
  3
Layout1
350
1E
  3
Layout2
350
26
  3
Model
350
22
  0
DICTIONARY
  5
17
102
{ACAD_REACTORS
330
C
102
}
330
C
100
AcDbDictionary
281
     1
  3
Standard
350
18
  0
DICTIONARY
  5
19
102
{ACAD_REACTORS
330
C
102
}
330
C
100
AcDbDictionary
281
     1
  0
ACDBDICTIONARYWDFLT
  5
E
102
{ACAD_REACTORS
330
C
102
}
330
C
100
AcDbDictionary
281
     1
  3
Normal
350
F
100
AcDbDictionaryWithDefault
340
F
  0
DICTIONARY
  5
47
102
{ACAD_REACTORS
330
C
102
}
330
C
100
AcDbDictionary
281
     1
  3
A0
350
48
  3
A1
350
49
  3
A2
350
4A
  3
A3
350
4B
  3
A4
350
4C
  3
A5
350
4D
  3
A6
350
4E
  3
A7
350
4F
  3
A8
350
50
  3
A9
350
51
  3
B0
350
52
  3
B1
350
53
  3
B2
350
54
  3
B3
350
55
  3
B4
350
56
  3
B5
350
57
  3
B6
350
58
  3
B7
350
59
  3
B8
350
5A
  3
B9
350
5B
  3
C0
350
5C
  3
C1
350
5D
  3
C2
350
5E
  3
C3
350
5F
  3
C4
350
60
  3
C5
350
61
  3
C6
350
62
  3
C7
350
63
  3
C8
350
64
  3
C9
350
65
  3
D0
350
66
  3
D1
350
67
  3
D2
350
68
  0
XRECORD
  5
ED
102
{ACAD_REACTORS
330
C
102
}
330
C
100
AcDbXrecord
280
     1
  1
DWGPROPS COOKIE
  2

  3

  4

  6

  7

  8
b.kav
  9

300
=
301
=
302
=
303
=
304
=
305
=
306
=
307
=
308
=
309
=
 40
0.0
 41
2459935.584287685
 42
2459935.58428787
  1

 90
        0
  0
LAYOUT
  5
1E
102
{ACAD_REACTORS
330
1A
102
}
330
1A
100
AcDbPlotSettings
  1

  2
none_device
  4

  6

 40
0.0
 41
0.0
 42
0.0
 43
0.0
 44
0.0
 45
0.0
 46
0.0
 47
0.0
 48
0.0
 49
0.0
140
0.0
141
0.0
142
1.0
143
1.0
 70
   688
 72
     1
 73
     0
 74
     5
  7

 75
    16
147
1.0
148
0.0
149
0.0
100
AcDbLayout
  1
Layout1
 70
     1
 71
     1
 10
0.0
 20
0.0
 11
420.0
 21
297.0
 12
0.0
 22
0.0
 32
0.0
 14
1.0000000000E+20
 24
1.0000000000E+20
 34
1.0000000000E+20
 15
-1.0000000000E+20
 25
-1.0000000000E+20
 35
-1.0000000000E+20
146
0.0
 13
0.0
 23
0.0
 33
0.0
 16
1.0
 26
0.0
 36
0.0
 17
0.0
 27
1.0
 37
0.0
 76
     0
330
1B
  0
LAYOUT
  5
26
102
{ACAD_REACTORS
330
1A
102
}
330
1A
100
AcDbPlotSettings
  1

  2
none_device
  4

  6

 40
0.0
 41
0.0
 42
0.0
 43
0.0
 44
0.0
 45
0.0
 46
0.0
 47
0.0
 48
0.0
 49
0.0
140
0.0
141
0.0
142
1.0
143
1.0
 70
   688
 72
     1
 73
     0
 74
     5
  7

 75
    16
147
1.0
148
0.0
149
0.0
100
AcDbLayout
  1
Layout2
 70
     1
 71
     2
 10
0.0
 20
0.0
 11
0.0
 21
0.0
 12
0.0
 22
0.0
 32
0.0
 14
0.0
 24
0.0
 34
0.0
 15
0.0
 25
0.0
 35
0.0
146
0.0
 13
0.0
 23
0.0
 33
0.0
 16
1.0
 26
0.0
 36
0.0
 17
0.0
 27
1.0
 37
0.0
 76
     0
330
23
  0
LAYOUT
  5
22
102
{ACAD_REACTORS
330
1A
102
}
330
1A
100
AcDbPlotSettings
  1

  2
none_device
  4
Letter_(8.50_x_11.00_Inches)
  6

 40
6.35
 41
6.35
 42
6.35000508
 43
6.35000508
 44
215.9
 45
279.4
 46
0.0
 47
0.0
 48
0.0
 49
0.0
140
0.0
141
0.0
142
1.0
143
1.0
 70
  1712
 72
     1
 73
     0
 74
     0
  7

 75
     0
147
1.0
148
0.0
149
0.0
100
AcDbLayout
  1
Model
 70
     1
 71
     0
 10
0.0
 20
0.0
 11
279.4
 21
215.9
 12
0.0
 22
0.0
 32
0.0
 14
0.0
 24
0.0
 34
0.0
 15
279.4
 25
215.9
 35
0.0
146
0.0
 13
0.0
 23
0.0
 33
0.0
 16
1.0
 26
0.0
 36
0.0
 17
0.0
 27
1.0
 37
0.0
 76
     0
330
1F
331
29
  0
MLINESTYLE
  5
18
102
{ACAD_REACTORS
330
17
102
}
330
17
100
AcDbMlineStyle
  2
Standard
 70
     0
  3

 62
   256
 51
90.0
 52
90.0
 71
     2
 49
0.5
 62
   256
  6
BYLAYER
 49
-0.5
 62
   256
  6
BYLAYER
  0
ACDBPLACEHOLDER
  5
F
102
{ACAD_REACTORS
330
E
102
}
330
E
  0
SCALE
  5
48
102
{ACAD_REACTORS
330
47
102
}
330
47
100
AcDbScale
 70
     0
300
1:1
140
1.0
141
1.0
290
     1
  0
SCALE
  5
49
102
{ACAD_REACTORS
330
47
102
}
330
47
100
AcDbScale
 70
     0
300
1:2
140
1.0
141
2.0
290
     0
  0
SCALE
  5
4A
102
{ACAD_REACTORS
330
47
102
}
330
47
100
AcDbScale
 70
     0
300
1:4
140
1.0
141
4.0
290
     0
  0
SCALE
  5
4B
102
{ACAD_REACTORS
330
47
102
}
330
47
100
AcDbScale
 70
     0
300
1:5
140
1.0
141
5.0
290
     0
  0
SCALE
  5
4C
102
{ACAD_REACTORS
330
47
102
}
330
47
100
AcDbScale
 70
     0
300
1:8
140
1.0
141
8.0
290
     0
  0
SCALE
  5
4D
102
{ACAD_REACTORS
330
47
102
}
330
47
100
AcDbScale
 70
     0
300
1:10
140
1.0
141
10.0
290
     0
  0
SCALE
  5
4E
102
{ACAD_REACTORS
330
47
102
}
330
47
100
AcDbScale
 70
     0
300
1:16
140
1.0
141
16.0
290
     0
  0
SCALE
  5
4F
102
{ACAD_REACTORS
330
47
102
}
330
47
100
AcDbScale
 70
     0
300
1:20
140
1.0
141
20.0
290
     0
  0
SCALE
  5
50
102
{ACAD_REACTORS
330
47
102
}
330
47
100
AcDbScale
 70
     0
300
1:30
140
1.0
141
30.0
290
     0
  0
SCALE
  5
51
102
{ACAD_REACTORS
330
47
102
}
330
47
100
AcDbScale
 70
     0
300
1:40
140
1.0
141
40.0
290
     0
  0
SCALE
  5
52
102
{ACAD_REACTORS
330
47
102
}
330
47
100
AcDbScale
 70
     0
300
1:50
140
1.0
141
50.0
290
     0
  0
SCALE
  5
53
102
{ACAD_REACTORS
330
47
102
}
330
47
100
AcDbScale
 70
     0
300
1:100
140
1.0
141
100.0
290
     0
  0
SCALE
  5
54
102
{ACAD_REACTORS
330
47
102
}
330
47
100
AcDbScale
 70
     0
300
2:1
140
2.0
141
1.0
290
     0
  0
SCALE
  5
55
102
{ACAD_REACTORS
330
47
102
}
330
47
100
AcDbScale
 70
     0
300
4:1
140
4.0
141
1.0
290
     0
  0
SCALE
  5
56
102
{ACAD_REACTORS
330
47
102
}
330
47
100
AcDbScale
 70
     0
300
8:1
140
8.0
141
1.0
290
     0
  0
SCALE
  5
57
102
{ACAD_REACTORS
330
47
102
}
330
47
100
AcDbScale
 70
     0
300
10:1
140
10.0
141
1.0
290
     0
  0
SCALE
  5
58
102
{ACAD_REACTORS
330
47
102
}
330
47
100
AcDbScale
 70
     0
300
100:1
140
100.0
141
1.0
290
     0
  0
SCALE
  5
59
102
{ACAD_REACTORS
330
47
102
}
330
47
100
AcDbScale
 70
     0
300
1/128" = 1'-0"
140
0.0078125
141
12.0
290
     0
  0
SCALE
  5
5A
102
{ACAD_REACTORS
330
47
102
}
330
47
100
AcDbScale
 70
     0
300
1/64" = 1'-0"
140
0.015625
141
12.0
290
     0
  0
SCALE
  5
5B
102
{ACAD_REACTORS
330
47
102
}
330
47
100
AcDbScale
 70
     0
300
1/32" = 1'-0"
140
0.03125
141
12.0
290
     0
  0
SCALE
  5
5C
102
{ACAD_REACTORS
330
47
102
}
330
47
100
AcDbScale
 70
     0
300
1/16" = 1'-0"
140
0.0625
141
12.0
290
     0
  0
SCALE
  5
5D
102
{ACAD_REACTORS
330
47
102
}
330
47
100
AcDbScale
 70
     0
300
3/32" = 1'-0"
140
0.09375
141
12.0
290
     0
  0
SCALE
  5
5E
102
{ACAD_REACTORS
330
47
102
}
330
47
100
AcDbScale
 70
     0
300
1/8" = 1'-0"
140
0.125
141
12.0
290
     0
  0
SCALE
  5
5F
102
{ACAD_REACTORS
330
47
102
}
330
47
100
AcDbScale
 70
     0
300
3/16" = 1'-0"
140
0.1875
141
12.0
290
     0
  0
SCALE
  5
60
102
{ACAD_REACTORS
330
47
102
}
330
47
100
AcDbScale
 70
     0
300
1/4" = 1'-0"
140
0.25
141
12.0
290
     0
  0
SCALE
  5
61
102
{ACAD_REACTORS
330
47
102
}
330
47
100
AcDbScale
 70
     0
300
3/8" = 1'-0"
140
0.375
141
12.0
290
     0
  0
SCALE
  5
62
102
{ACAD_REACTORS
330
47
102
}
330
47
100
AcDbScale
 70
     0
300
1/2" = 1'-0"
140
0.5
141
12.0
290
     0
  0
SCALE
  5
63
102
{ACAD_REACTORS
330
47
102
}
330
47
100
AcDbScale
 70
     0
300
3/4" = 1'-0"
140
0.75
141
12.0
290
     0
  0
SCALE
  5
64
102
{ACAD_REACTORS
330
47
102
}
330
47
100
AcDbScale
 70
     0
300
1" = 1'-0"
140
1.0
141
12.0
290
     0
  0
SCALE
  5
65
102
{ACAD_REACTORS
330
47
102
}
330
47
100
AcDbScale
 70
     0
300
1-1/2" = 1'-0"
140
1.5
141
12.0
290
     0
  0
SCALE
  5
66
102
{ACAD_REACTORS
330
47
102
}
330
47
100
AcDbScale
 70
     0
300
3" = 1'-0"
140
3.0
141
12.0
290
     0
  0
SCALE
  5
67
102
{ACAD_REACTORS
330
47
102
}
330
47
100
AcDbScale
 70
     0
300
6" = 1'-0"
140
6.0
141
12.0
290
     0
  0
SCALE
  5
68
102
{ACAD_REACTORS
330
47
102
}
330
47
100
AcDbScale
 70
     0
300
1'-0" = 1'-0"
140
12.0
141
12.0
290
     0
  0
ENDSEC
  0
EOF
